ISO-10303-21;
HEADER;
FILE_DESCRIPTION (( 'STEP AP203' ),
    '1' );
FILE_NAME ('End Cap SDR11_001 117 0140 0225.step',
    '2019-12-16T11:41:11',
    ( '' ),
    ( '' ),
    'SwSTEP 2.0',
    'SolidWorks 2019',
    '' );
FILE_SCHEMA (( 'CONFIG_CONTROL_DESIGN' ));
ENDSEC;

DATA;
#1 = CALENDAR_DATE ( 2019, 16, 12 ) ;
#2 = FACE_OUTER_BOUND ( 'NONE', #238, .T. ) ;
#3 = DATE_TIME_ROLE ( 'classification_date' ) ;
#4 = DIRECTION ( 'NONE',  ( 0.0000000000000000000, 0.0000000000000000000, -1.000000000000000000 ) ) ;
#5 = ADVANCED_BREP_SHAPE_REPRESENTATION ( 'End Cap SDR11_001 117 0140 0225', ( #229, #48 ), #67 ) ;
#6 = CC_DESIGN_APPROVAL ( #276, ( #275 ) ) ;
#7 = LOCAL_TIME ( 14, 41, 11.00000000000000000, #271 ) ;
#8 = DIRECTION ( 'NONE',  ( -0.0000000000000000000, -1.000000000000000000, -0.0000000000000000000 ) ) ;
#9 = CARTESIAN_POINT ( 'NONE',  ( 0.0000000000000000000, 134.6711361191964897, 0.0000000000000000000 ) ) ;
#10 = DIRECTION ( 'NONE',  ( 0.0000000000000000000, 0.0000000000000000000, -1.000000000000000000 ) ) ;
#11 = DIRECTION ( 'NONE',  ( -0.0000000000000000000, -1.000000000000000000, -0.0000000000000000000 ) ) ;
#12 = CARTESIAN_POINT ( 'NONE',  ( 0.0000000000000000000, 0.0000000000000000000, 0.0000000000000000000 ) ) ;
#13 = CC_DESIGN_APPROVAL ( #198, ( #34 ) ) ;
#14 = CYLINDRICAL_SURFACE ( 'NONE', #93, 92.00000000000000000 ) ;
#15 = APPROVAL_PERSON_ORGANIZATION ( #277, #276, #164 ) ;
#16 = CARTESIAN_POINT ( 'NONE',  ( 0.0000000000000000000, 0.0000000000000000000, 0.0000000000000000000 ) ) ;
#17 = AXIS2_PLACEMENT_3D ( 'NONE', #110, #109, #106 ) ;
#18 = DIRECTION ( 'NONE',  ( 0.0000000000000000000, 0.0000000000000000000, -1.000000000000000000 ) ) ;
#19 = DIRECTION ( 'NONE',  ( -0.0000000000000000000, -1.000000000000000000, -0.0000000000000000000 ) ) ;
#20 = CARTESIAN_POINT ( 'NONE',  ( 0.0000000000000000000, 0.0000000000000000000, 0.0000000000000000000 ) ) ;
#21 = CYLINDRICAL_SURFACE ( 'NONE', #107, 112.5000000000000000 ) ;
#22 = FACE_OUTER_BOUND ( 'NONE', #255, .T. ) ;
#23 = CARTESIAN_POINT ( 'NONE',  ( -4.466912950640278268E-14, 155.1711361191964613, 0.0000000000000000000 ) ) ;
#24 = DIRECTION ( 'NONE',  ( 0.0000000000000000000, 0.0000000000000000000, -1.000000000000000000 ) ) ;
#25 = DIRECTION ( 'NONE',  ( -0.0000000000000000000, -1.000000000000000000, -0.0000000000000000000 ) ) ;
#26 = CARTESIAN_POINT ( 'NONE',  ( 0.0000000000000000000, 120.0000000000000568, 0.0000000000000000000 ) ) ;
#27 = DIRECTION ( 'NONE',  ( 0.0000000000000000000, 0.0000000000000000000, -1.000000000000000000 ) ) ;
#28 = DIRECTION ( 'NONE',  ( -0.0000000000000000000, -1.000000000000000000, -0.0000000000000000000 ) ) ;
#29 = CARTESIAN_POINT ( 'NONE',  ( 0.0000000000000000000, 0.0000000000000000000, 0.0000000000000000000 ) ) ;
#30 =( LENGTH_UNIT ( ) NAMED_UNIT ( * ) SI_UNIT ( .MILLI., .METRE. ) );
#31 = APPLICATION_CONTEXT ( 'configuration controlled 3d designs of mechanical parts and assemblies' ) ;
#32 = CARTESIAN_POINT ( 'NONE',  ( 1.377727649040772626E-14, 0.0000000000000000000, 112.5000000000000284 ) ) ;
#33 = APPROVAL_STATUS ( 'not_yet_approved' ) ;
#34 = SECURITY_CLASSIFICATION ( '', '', #68 ) ;
#35 = CIRCLE ( 'NONE', #223, 337.5000000000000000 ) ;
#36 = APPROVAL_STATUS ( 'not_yet_approved' ) ;
#37 = COORDINATED_UNIVERSAL_TIME_OFFSET ( 3, 0, .AHEAD. ) ;
#38 = CARTESIAN_POINT ( 'NONE',  ( -2.160526485124692509E-14, 134.6711361191964897, 0.0000000000000000000 ) ) ;
#39 = CARTESIAN_POINT ( 'NONE',  ( 0.0000000000000000000, 120.0000000000000568, -91.99999999999998579 ) ) ;
#40 = CARTESIAN_POINT ( 'NONE',  ( 0.0000000000000000000, 0.0000000000000000000, -92.00000000000002842 ) ) ;
#41 = ORGANIZATION ( 'BELÝRTÝLMEMÝÞ', 'BELÝRTÝLMEMÝÞ', '' ) ;
#42 = DIRECTION ( 'NONE',  ( -0.0000000000000000000, -1.000000000000000000, -0.0000000000000000000 ) ) ;
#43 = CARTESIAN_POINT ( 'NONE',  ( 0.0000000000000000000, 0.0000000000000000000, -92.00000000000000000 ) ) ;
#44 = LINE ( 'NONE', #43, #136 ) ;
#45 = CARTESIAN_POINT ( 'NONE',  ( 1.126675055215565256E-14, 0.0000000000000000000, 92.00000000000001421 ) ) ;
#46 = CARTESIAN_POINT ( 'NONE',  ( 1.126675055215564783E-14, 120.0000000000000568, 91.99999999999998579 ) ) ;
#47 = CARTESIAN_POINT ( 'NONE',  ( 0.0000000000000000000, 134.6711361191964897, -112.4999999999999858 ) ) ;
#48 = AXIS2_PLACEMENT_3D ( 'NONE', #306, #129, #260 ) ;
#49 = CARTESIAN_POINT ( 'NONE',  ( 0.0000000000000000000, 0.0000000000000000000, -112.5000000000000142 ) ) ;
#50 = ORIENTED_EDGE ( 'NONE', *, *, #191, .T. ) ;
#51 = DIRECTION ( 'NONE',  ( 0.0000000000000000000, 0.0000000000000000000, -1.000000000000000000 ) ) ;
#52 = APPLICATION_CONTEXT ( 'configuration controlled 3d designs of mechanical parts and assemblies' ) ;
#53 = ADVANCED_FACE ( 'NONE', ( #173 ), #170, .T. ) ;
#54 = APPROVAL_PERSON_ORGANIZATION ( #278, #285, #169 ) ;
#55 = DIRECTION ( 'NONE',  ( -0.0000000000000000000, -1.000000000000000000, -0.0000000000000000000 ) ) ;
#56 = CARTESIAN_POINT ( 'NONE',  ( 0.0000000000000000000, 0.0000000000000000000, 0.0000000000000000000 ) ) ;
#57 = DIRECTION ( 'NONE',  ( 0.0000000000000000000, 0.0000000000000000000, -1.000000000000000000 ) ) ;
#58 = DIRECTION ( 'NONE',  ( -0.0000000000000000000, -1.000000000000000000, -0.0000000000000000000 ) ) ;
#59 = CARTESIAN_POINT ( 'NONE',  ( 0.0000000000000000000, 0.0000000000000000000, 0.0000000000000000000 ) ) ;
#60 = CYLINDRICAL_SURFACE ( 'NONE', #138, 92.00000000000000000 ) ;
#61 = DIRECTION ( 'NONE',  ( -0.0000000000000000000, -1.000000000000000000, -0.0000000000000000000 ) ) ;
#62 = FACE_OUTER_BOUND ( 'NONE', #213, .T. ) ;
#63 = APPLICATION_PROTOCOL_DEFINITION ( 'international standard', 'config_control_design', 1994, #31 ) ;
#64 = ADVANCED_FACE ( 'NONE', ( #158 ), #303, .F. ) ;
#65 = PERSON_AND_ORGANIZATION_ROLE ( 'design_owner' ) ;
#66 = DATE_AND_TIME ( #286, #102 ) ;
#67 =( GEOMETRIC_REPRESENTATION_CONTEXT ( 3 ) GLOBAL_UNCERTAINTY_ASSIGNED_CONTEXT ( ( #294 ) ) GLOBAL_UNIT_ASSIGNED_CONTEXT ( ( #30, #304, #295 ) ) REPRESENTATION_CONTEXT ( 'NONE', 'WORKASPACE' ) );
#68 = SECURITY_CLASSIFICATION_LEVEL ( 'unclassified' ) ;
#69 = DIRECTION ( 'NONE',  ( -0.0000000000000000000, -1.000000000000000000, -0.0000000000000000000 ) ) ;
#70 = APPROVAL_DATE_TIME ( #289, #198 ) ;
#71 = CARTESIAN_POINT ( 'NONE',  ( 1.126675055215564941E-14, 0.0000000000000000000, 92.00000000000000000 ) ) ;
#72 = LINE ( 'NONE', #71, #153 ) ;
#73 = DIRECTION ( 'NONE',  ( -0.0000000000000000000, -1.000000000000000000, -0.0000000000000000000 ) ) ;
#74 = CARTESIAN_POINT ( 'NONE',  ( 0.0000000000000000000, 0.0000000000000000000, -112.5000000000000000 ) ) ;
#75 = LINE ( 'NONE', #74, #154 ) ;
#76 = ADVANCED_FACE ( 'NONE', ( #156 ), #244, .F. ) ;
#77 = CARTESIAN_POINT ( 'NONE',  ( 1.377727649040772310E-14, 134.6711361191964897, 112.4999999999999858 ) ) ;
#78 = DIRECTION ( 'NONE',  ( 0.0000000000000000000, 0.0000000000000000000, 1.000000000000000000 ) ) ;
#79 = DIRECTION ( 'NONE',  ( -1.000000000000000000, 0.0000000000000000000, 0.0000000000000000000 ) ) ;
#80 = CARTESIAN_POINT ( 'NONE',  ( 0.0000000000000000000, -182.3119470354758676, 3.379139597073653967 ) ) ;
#81 = AXIS2_PLACEMENT_3D ( 'NONE', #283, #61, #201 ) ;
#82 = TOROIDAL_SURFACE ( 'NONE', #81, -3.379139597073653967, 337.5000000000000000 ) ;
#83 = PERSON ( 'BELÝRTÝLMEMÝÞ', 'BELÝRTÝLMEMÝÞ', 'BELÝRTÝLMEMÝÞ', ('BELÝRTÝLMEMÝÞ'), ('BELÝRTÝLMEMÝÞ'), ('BELÝRTÝLMEMÝÞ') ) ;
#84 = ORIENTED_EDGE ( 'NONE', *, *, #267, .F. ) ;
#85 = DIRECTION ( 'NONE',  ( 0.0000000000000000000, 0.0000000000000000000, -1.000000000000000000 ) ) ;
#86 = DIRECTION ( 'NONE',  ( -0.0000000000000000000, -1.000000000000000000, -0.0000000000000000000 ) ) ;
#87 = DIRECTION ( 'NONE',  ( 0.0000000000000000000, 0.0000000000000000000, -1.000000000000000000 ) ) ;
#88 = EDGE_CURVE ( 'NONE', #256, #234, #35, .T. ) ;
#89 = DIRECTION ( 'NONE',  ( -0.0000000000000000000, -1.000000000000000000, -0.0000000000000000000 ) ) ;
#90 = AXIS2_PLACEMENT_3D ( 'NONE', #9, #8, #4 ) ;
#91 = CARTESIAN_POINT ( 'NONE',  ( 0.0000000000000000000, -182.3119470354758676, 0.0000000000000000000 ) ) ;
#92 = CARTESIAN_POINT ( 'NONE',  ( 0.0000000000000000000, 134.6711361191964897, 0.0000000000000000000 ) ) ;
#93 = AXIS2_PLACEMENT_3D ( 'NONE', #12, #11, #10 ) ;
#94 = EDGE_CURVE ( 'NONE', #236, #246, #216, .T. ) ;
#95 = CIRCLE ( 'NONE', #90, 112.4999999999999858 ) ;
#96 = PERSON_AND_ORGANIZATION_ROLE ( 'creator' ) ;
#97 = PERSON_AND_ORGANIZATION_ROLE ( 'creator' ) ;
#98 = FACE_OUTER_BOUND ( 'NONE', #252, .T. ) ;
#99 = COORDINATED_UNIVERSAL_TIME_OFFSET ( 3, 0, .AHEAD. ) ;
#100 = DIRECTION ( 'NONE',  ( -1.224646799147353207E-16, 0.0000000000000000000, -1.000000000000000000 ) ) ;
#101 = DIRECTION ( 'NONE',  ( 1.000000000000000000, 0.0000000000000000000, -1.224646799147353207E-16 ) ) ;
#102 = LOCAL_TIME ( 14, 41, 11.00000000000000000, #241 ) ;
#103 = CARTESIAN_POINT ( 'NONE',  ( -4.138252491428327420E-16, -182.3119470354758676, -3.379139597073653967 ) ) ;
#104 = ADVANCED_FACE ( 'NONE', ( #127, #126 ), #125, .T. ) ;
#105 = AXIS2_PLACEMENT_3D ( 'NONE', #16, #266, #302 ) ;
#106 = DIRECTION ( 'NONE',  ( -1.224646799147353207E-16, 0.0000000000000000000, -1.000000000000000000 ) ) ;
#107 = AXIS2_PLACEMENT_3D ( 'NONE', #20, #19, #18 ) ;
#108 = CIRCLE ( 'NONE', #105, 112.5000000000000142 ) ;
#109 = DIRECTION ( 'NONE',  ( 1.000000000000000000, 0.0000000000000000000, -1.224646799147353207E-16 ) ) ;
#110 = CARTESIAN_POINT ( 'NONE',  ( -4.138252491428327420E-16, -182.3119470354758676, -3.379139597073653967 ) ) ;
#111 = DIRECTION ( 'NONE',  ( -0.0000000000000000000, -1.000000000000000000, -0.0000000000000000000 ) ) ;
#112 = PRODUCT_RELATED_PRODUCT_CATEGORY ( 'detail', '', ( #259 ) ) ;
#113 = CARTESIAN_POINT ( 'NONE',  ( 1.377727649040772310E-14, 0.0000000000000000000, 112.5000000000000000 ) ) ;
#114 = LINE ( 'NONE', #113, #192 ) ;
#115 = FACE_OUTER_BOUND ( 'NONE', #174, .T. ) ;
#116 = DIRECTION ( 'NONE',  ( 0.0000000000000000000, 0.0000000000000000000, -1.000000000000000000 ) ) ;
#117 = DIRECTION ( 'NONE',  ( -0.0000000000000000000, -1.000000000000000000, -0.0000000000000000000 ) ) ;
#118 = CARTESIAN_POINT ( 'NONE',  ( 0.0000000000000000000, 0.0000000000000000000, 0.0000000000000000000 ) ) ;
#119 = DIRECTION ( 'NONE',  ( 0.0000000000000000000, 0.0000000000000000000, -1.000000000000000000 ) ) ;
#120 = DIRECTION ( 'NONE',  ( 0.0000000000000000000, -1.000000000000000000, -0.0000000000000000000 ) ) ;
#121 = EDGE_CURVE ( 'NONE', #230, #250, #202, .T. ) ;
#122 = CARTESIAN_POINT ( 'NONE',  ( 92.00000000000002842, 0.0000000000000000000, 0.0000000000000000000 ) ) ;
#123 = AXIS2_PLACEMENT_3D ( 'NONE', #26, #25, #24 ) ;
#124 = CIRCLE ( 'NONE', #123, 91.99999999999998579 ) ;
#125 = PLANE ( 'NONE',  #208 ) ;
#126 = FACE_BOUND ( 'NONE', #237, .T. ) ;
#127 = FACE_OUTER_BOUND ( 'NONE', #231, .T. ) ;
#128 = EDGE_CURVE ( 'NONE', #178, #250, #114, .T. ) ;
#129 = DIRECTION ( 'NONE',  ( 0.0000000000000000000, 0.0000000000000000000, 1.000000000000000000 ) ) ;
#130 = AXIS2_PLACEMENT_3D ( 'NONE', #29, #28, #27 ) ;
#131 = CIRCLE ( 'NONE', #130, 92.00000000000002842 ) ;
#132 = DATE_AND_TIME ( #307, #7 ) ;
#133 = DATE_AND_TIME ( #1, #247 ) ;
#134 = DIRECTION ( 'NONE',  ( 0.0000000000000000000, 0.0000000000000000000, -1.000000000000000000 ) ) ;
#135 = PERSON_AND_ORGANIZATION ( #83, #41 ) ;
#136 = VECTOR ( 'NONE', #42, 1000.000000000000000 ) ;
#137 = AXIS2_PLACEMENT_3D ( 'NONE', #56, #55, #51 ) ;
#138 = AXIS2_PLACEMENT_3D ( 'NONE', #59, #58, #57 ) ;
#139 = DIRECTION ( 'NONE',  ( -0.0000000000000000000, -1.000000000000000000, -0.0000000000000000000 ) ) ;
#140 = EDGE_CURVE ( 'NONE', #249, #236, #190, .T. ) ;
#141 = CARTESIAN_POINT ( 'NONE',  ( 0.0000000000000000000, 120.0000000000000568, 0.0000000000000000000 ) ) ;
#142 = CC_DESIGN_APPROVAL ( #285, ( #270 ) ) ;
#143 = DIRECTION ( 'NONE',  ( 0.0000000000000000000, 0.0000000000000000000, 1.000000000000000000 ) ) ;
#144 = LOCAL_TIME ( 14, 41, 11.00000000000000000, #37 ) ;
#145 = DIRECTION ( 'NONE',  ( -1.000000000000000000, 0.0000000000000000000, 0.0000000000000000000 ) ) ;
#146 = CIRCLE ( 'NONE', #137, 92.00000000000002842 ) ;
#147 = CARTESIAN_POINT ( 'NONE',  ( 0.0000000000000000000, -182.3119470354758676, 3.379139597073653967 ) ) ;
#148 = DIRECTION ( 'NONE',  ( 0.0000000000000000000, 0.0000000000000000000, -1.000000000000000000 ) ) ;
#149 = DIRECTION ( 'NONE',  ( -0.0000000000000000000, -1.000000000000000000, -0.0000000000000000000 ) ) ;
#150 = CARTESIAN_POINT ( 'NONE',  ( 0.0000000000000000000, -182.3119470354758676, 0.0000000000000000000 ) ) ;
#151 = DIRECTION ( 'NONE',  ( 0.0000000000000000000, 0.0000000000000000000, -1.000000000000000000 ) ) ;
#152 = DIRECTION ( 'NONE',  ( -0.0000000000000000000, -1.000000000000000000, -0.0000000000000000000 ) ) ;
#153 = VECTOR ( 'NONE', #69, 1000.000000000000000 ) ;
#154 = VECTOR ( 'NONE', #73, 1000.000000000000000 ) ;
#155 = CARTESIAN_POINT ( 'NONE',  ( 0.0000000000000000000, -182.3119470354758676, 0.0000000000000000000 ) ) ;
#156 = FACE_OUTER_BOUND ( 'NONE', #176, .T. ) ;
#157 = EDGE_CURVE ( 'NONE', #256, #178, #184, .T. ) ;
#158 = FACE_OUTER_BOUND ( 'NONE', #253, .T. ) ;
#159 = DIRECTION ( 'NONE',  ( 0.0000000000000000000, 0.0000000000000000000, -1.000000000000000000 ) ) ;
#160 = AXIS2_PLACEMENT_3D ( 'NONE', #80, #79, #78 ) ;
#161 = DIRECTION ( 'NONE',  ( -0.0000000000000000000, -1.000000000000000000, -0.0000000000000000000 ) ) ;
#162 = CIRCLE ( 'NONE', #160, 317.0010939896871491 ) ;
#163 = CARTESIAN_POINT ( 'NONE',  ( 0.0000000000000000000, 0.0000000000000000000, 0.0000000000000000000 ) ) ;
#164 = APPROVAL_ROLE ( '' ) ;
#165 = AXIS2_PLACEMENT_3D ( 'NONE', #92, #86, #85 ) ;
#166 = ADVANCED_FACE ( 'NONE', ( #98 ), #175, .T. ) ;
#167 = CIRCLE ( 'NONE', #165, 112.4999999999999858 ) ;
#168 = AXIS2_PLACEMENT_3D ( 'NONE', #91, #89, #87 ) ;
#169 = APPROVAL_ROLE ( '' ) ;
#170 = CYLINDRICAL_SURFACE ( 'NONE', #288, 112.5000000000000000 ) ;
#171 = EDGE_CURVE ( 'NONE', #234, #178, #167, .T. ) ;
#172 = CALENDAR_DATE ( 2019, 16, 12 ) ;
#173 = FACE_OUTER_BOUND ( 'NONE', #248, .T. ) ;
#174 = EDGE_LOOP ( 'NONE', ( #203, #199, #197, #196 ) ) ;
#175 = TOROIDAL_SURFACE ( 'NONE', #168, -3.379139597073653967, 337.5000000000000000 ) ;
#176 = EDGE_LOOP ( 'NONE', ( #222, #224, #291 ) ) ;
#177 = EDGE_CURVE ( 'NONE', #249, #246, #162, .T. ) ;
#178 = VERTEX_POINT ( 'NONE', #77 ) ;
#179 = ORIENTED_EDGE ( 'NONE', *, *, #261, .F. ) ;
#180 = ORIENTED_EDGE ( 'NONE', *, *, #88, .T. ) ;
#181 = ORIENTED_EDGE ( 'NONE', *, *, #157, .F. ) ;
#182 = ORIENTED_EDGE ( 'NONE', *, *, #261, .T. ) ;
#183 = AXIS2_PLACEMENT_3D ( 'NONE', #103, #101, #100 ) ;
#184 = CIRCLE ( 'NONE', #183, 337.5000000000000000 ) ;
#185 = ORIENTED_EDGE ( 'NONE', *, *, #121, .T. ) ;
#186 = ORIENTED_EDGE ( 'NONE', *, *, #251, .T. ) ;
#187 = ORIENTED_EDGE ( 'NONE', *, *, #267, .T. ) ;
#188 = ORIENTED_EDGE ( 'NONE', *, *, #128, .F. ) ;
#189 = ORIENTED_EDGE ( 'NONE', *, *, #228, .F. ) ;
#190 = CIRCLE ( 'NONE', #17, 317.0010939896871491 ) ;
#191 = EDGE_CURVE ( 'NONE', #234, #230, #75, .T. ) ;
#192 = VECTOR ( 'NONE', #111, 1000.000000000000000 ) ;
#193 = ORIENTED_EDGE ( 'NONE', *, *, #251, .F. ) ;
#194 = ORIENTED_EDGE ( 'NONE', *, *, #254, .F. ) ;
#195 = ORIENTED_EDGE ( 'NONE', *, *, #207, .F. ) ;
#196 = ORIENTED_EDGE ( 'NONE', *, *, #240, .F. ) ;
#197 = ORIENTED_EDGE ( 'NONE', *, *, #228, .T. ) ;
#198 = APPROVAL ( #264, 'BELÝRTÝLMEMÝÞ' ) ;
#199 = ORIENTED_EDGE ( 'NONE', *, *, #207, .T. ) ;
#200 = AXIS2_PLACEMENT_3D ( 'NONE', #118, #117, #116 ) ;
#201 = DIRECTION ( 'NONE',  ( 0.0000000000000000000, 0.0000000000000000000, -1.000000000000000000 ) ) ;
#202 = CIRCLE ( 'NONE', #200, 112.5000000000000142 ) ;
#203 = ORIENTED_EDGE ( 'NONE', *, *, #94, .F. ) ;
#204 = APPLICATION_PROTOCOL_DEFINITION ( 'international standard', 'config_control_design', 1994, #52 ) ;
#205 = LOCAL_TIME ( 14, 41, 11.00000000000000000, #99 ) ;
#206 = DATE_TIME_ROLE ( 'creation_date' ) ;
#207 = EDGE_CURVE ( 'NONE', #236, #239, #72, .T. ) ;
#208 = AXIS2_PLACEMENT_3D ( 'NONE', #122, #120, #119 ) ;
#209 = PERSON_AND_ORGANIZATION ( #83, #41 ) ;
#210 = ORIENTED_EDGE ( 'NONE', *, *, #191, .F. ) ;
#211 = SHAPE_DEFINITION_REPRESENTATION ( #305, #5 ) ;
#212 = ADVANCED_FACE ( 'NONE', ( #62 ), #60, .F. ) ;
#213 = EDGE_LOOP ( 'NONE', ( #195, #194, #281, #186 ) ) ;
#214 = ORIENTED_EDGE ( 'NONE', *, *, #121, .F. ) ;
#215 = AXIS2_PLACEMENT_3D ( 'NONE', #141, #139, #134 ) ;
#216 = CIRCLE ( 'NONE', #215, 91.99999999999998579 ) ;
#217 = ORIENTED_EDGE ( 'NONE', *, *, #128, .T. ) ;
#218 = ORIENTED_EDGE ( 'NONE', *, *, #171, .T. ) ;
#219 = ORIENTED_EDGE ( 'NONE', *, *, #171, .F. ) ;
#220 = ORIENTED_EDGE ( 'NONE', *, *, #157, .T. ) ;
#221 = ORIENTED_EDGE ( 'NONE', *, *, #88, .F. ) ;
#222 = ORIENTED_EDGE ( 'NONE', *, *, #177, .F. ) ;
#223 = AXIS2_PLACEMENT_3D ( 'NONE', #147, #145, #143 ) ;
#224 = ORIENTED_EDGE ( 'NONE', *, *, #140, .T. ) ;
#225 = ORIENTED_EDGE ( 'NONE', *, *, #140, .F. ) ;
#226 = ORIENTED_EDGE ( 'NONE', *, *, #177, .T. ) ;
#227 = ORIENTED_EDGE ( 'NONE', *, *, #254, .T. ) ;
#228 = EDGE_CURVE ( 'NONE', #239, #243, #146, .T. ) ;
#229 = MANIFOLD_SOLID_BREP ( 'Döndür1', #232 ) ;
#230 = VERTEX_POINT ( 'NONE', #49 ) ;
#231 = EDGE_LOOP ( 'NONE', ( #185, #182 ) ) ;
#232 = CLOSED_SHELL ( 'NONE', ( #76, #269, #53, #265, #212, #104, #257, #166, #64 ) ) ;
#233 = AXIS2_PLACEMENT_3D ( 'NONE', #150, #149, #148 ) ;
#234 = VERTEX_POINT ( 'NONE', #47 ) ;
#235 = DESIGN_CONTEXT ( 'detailed design', #52, 'design' ) ;
#236 = VERTEX_POINT ( 'NONE', #46 ) ;
#237 = EDGE_LOOP ( 'NONE', ( #193, #189 ) ) ;
#238 = EDGE_LOOP ( 'NONE', ( #221, #220, #219 ) ) ;
#239 = VERTEX_POINT ( 'NONE', #45 ) ;
#240 = EDGE_CURVE ( 'NONE', #246, #243, #44, .T. ) ;
#241 = COORDINATED_UNIVERSAL_TIME_OFFSET ( 3, 0, .AHEAD. ) ;
#242 = PERSON_AND_ORGANIZATION ( #83, #41 ) ;
#243 = VERTEX_POINT ( 'NONE', #40 ) ;
#244 = TOROIDAL_SURFACE ( 'NONE', #233, -3.379139597073653967, 317.0010939896871491 ) ;
#245 = CALENDAR_DATE ( 2019, 16, 12 ) ;
#246 = VERTEX_POINT ( 'NONE', #39 ) ;
#247 = LOCAL_TIME ( 14, 41, 11.00000000000000000, #272 ) ;
#248 = EDGE_LOOP ( 'NONE', ( #218, #217, #214, #210 ) ) ;
#249 = VERTEX_POINT ( 'NONE', #38 ) ;
#250 = VERTEX_POINT ( 'NONE', #32 ) ;
#251 = EDGE_CURVE ( 'NONE', #243, #239, #131, .T. ) ;
#252 = EDGE_LOOP ( 'NONE', ( #181, #180, #84 ) ) ;
#253 = EDGE_LOOP ( 'NONE', ( #225, #226, #227 ) ) ;
#254 = EDGE_CURVE ( 'NONE', #246, #236, #124, .T. ) ;
#255 = EDGE_LOOP ( 'NONE', ( #188, #187, #50, #179 ) ) ;
#256 = VERTEX_POINT ( 'NONE', #23 ) ;
#257 = ADVANCED_FACE ( 'NONE', ( #22 ), #21, .T. ) ;
#258 = CC_DESIGN_SECURITY_CLASSIFICATION ( #34, ( #270 ) ) ;
#259 = PRODUCT ( 'End Cap SDR11_001 117 0140 0225', 'End Cap SDR11_001 117 0140 0225', '', ( #296 ) ) ;
#260 = DIRECTION ( 'NONE',  ( 1.000000000000000000, 0.0000000000000000000, 0.0000000000000000000 ) ) ;
#261 = EDGE_CURVE ( 'NONE', #250, #230, #108, .T. ) ;
#262 = APPROVAL_DATE_TIME ( #132, #276 ) ;
#263 = APPROVAL_DATE_TIME ( #133, #285 ) ;
#264 = APPROVAL_STATUS ( 'not_yet_approved' ) ;
#265 = ADVANCED_FACE ( 'NONE', ( #115 ), #14, .F. ) ;
#266 = DIRECTION ( 'NONE',  ( -0.0000000000000000000, -1.000000000000000000, -0.0000000000000000000 ) ) ;
#267 = EDGE_CURVE ( 'NONE', #178, #234, #95, .T. ) ;
#268 = AXIS2_PLACEMENT_3D ( 'NONE', #155, #152, #151 ) ;
#269 = ADVANCED_FACE ( 'NONE', ( #2 ), #82, .T. ) ;
#270 = PRODUCT_DEFINITION_FORMATION_WITH_SPECIFIED_SOURCE ( 'HERHANGÝ', '', #259, .NOT_KNOWN. ) ;
#271 = COORDINATED_UNIVERSAL_TIME_OFFSET ( 3, 0, .AHEAD. ) ;
#272 = COORDINATED_UNIVERSAL_TIME_OFFSET ( 3, 0, .AHEAD. ) ;
#273 = DATE_AND_TIME ( #172, #144 ) ;
#274 = CC_DESIGN_PERSON_AND_ORGANIZATION_ASSIGNMENT ( #284, #65, ( #259 ) ) ;
#275 = PRODUCT_DEFINITION ( 'BÝLÝNMEYEN', '', #270, #235 ) ;
#276 = APPROVAL ( #33, 'BELÝRTÝLMEMÝÞ' ) ;
#277 = PERSON_AND_ORGANIZATION ( #83, #41 ) ;
#278 = PERSON_AND_ORGANIZATION ( #83, #41 ) ;
#279 = PERSON_AND_ORGANIZATION_ROLE ( 'classification_officer' ) ;
#280 = CC_DESIGN_PERSON_AND_ORGANIZATION_ASSIGNMENT ( #297, #96, ( #275 ) ) ;
#281 = ORIENTED_EDGE ( 'NONE', *, *, #240, .T. ) ;
#282 = CC_DESIGN_DATE_AND_TIME_ASSIGNMENT ( #66, #206, ( #275 ) ) ;
#283 = CARTESIAN_POINT ( 'NONE',  ( 0.0000000000000000000, -182.3119470354758676, 0.0000000000000000000 ) ) ;
#284 = PERSON_AND_ORGANIZATION ( #83, #41 ) ;
#285 = APPROVAL ( #36, 'BELÝRTÝLMEMÝÞ' ) ;
#286 = CALENDAR_DATE ( 2019, 16, 12 ) ;
#287 = PERSON_AND_ORGANIZATION_ROLE ( 'design_supplier' ) ;
#288 = AXIS2_PLACEMENT_3D ( 'NONE', #163, #161, #159 ) ;
#289 = DATE_AND_TIME ( #245, #205 ) ;
#290 = CC_DESIGN_PERSON_AND_ORGANIZATION_ASSIGNMENT ( #299, #97, ( #270 ) ) ;
#291 = ORIENTED_EDGE ( 'NONE', *, *, #94, .T. ) ;
#292 = CC_DESIGN_PERSON_AND_ORGANIZATION_ASSIGNMENT ( #242, #287, ( #270 ) ) ;
#293 = APPROVAL_PERSON_ORGANIZATION ( #135, #198, #300 ) ;
#294 = UNCERTAINTY_MEASURE_WITH_UNIT (LENGTH_MEASURE( 1.000000000000000082E-05 ), #30, 'distance_accuracy_value', 'NONE');
#295 =( NAMED_UNIT ( * ) SI_UNIT ( $, .STERADIAN. ) SOLID_ANGLE_UNIT ( ) );
#296 = MECHANICAL_CONTEXT ( 'NONE', #31, 'mechanical' ) ;
#297 = PERSON_AND_ORGANIZATION ( #83, #41 ) ;
#298 = CC_DESIGN_PERSON_AND_ORGANIZATION_ASSIGNMENT ( #209, #279, ( #34 ) ) ;
#299 = PERSON_AND_ORGANIZATION ( #83, #41 ) ;
#300 = APPROVAL_ROLE ( '' ) ;
#301 = CC_DESIGN_DATE_AND_TIME_ASSIGNMENT ( #273, #3, ( #34 ) ) ;
#302 = DIRECTION ( 'NONE',  ( 0.0000000000000000000, 0.0000000000000000000, -1.000000000000000000 ) ) ;
#303 = TOROIDAL_SURFACE ( 'NONE', #268, -3.379139597073653967, 317.0010939896871491 ) ;
#304 =( NAMED_UNIT ( * ) PLANE_ANGLE_UNIT ( ) SI_UNIT ( $, .RADIAN. ) );
#305 = PRODUCT_DEFINITION_SHAPE ( 'NONE', 'NONE',  #275 ) ;
#306 = CARTESIAN_POINT ( 'NONE',  ( 0.0000000000000000000, 0.0000000000000000000, 0.0000000000000000000 ) ) ;
#307 = CALENDAR_DATE ( 2019, 16, 12 ) ;
ENDSEC;
END-ISO-10303-21;
